999
dxflib 2.0.4.8
  0
SECTION
  2
HEADER
  9
$ACADVER
  1
AC1015
  9
$HANDSEED
  5
FFFF
  9
$DIMASZ
 40
2.5
  9
$GRIDUNIT
 10
0.0
 20
0.0
  9
$DIMADEC
 70
2
  9
$DIMGAP
 40
0.625
  9
$SPLINESEGS
 70
8
  9
$AUPREC
 70
2
  9
$LUNITS
 70
2
  9
$DIMEXO
 40
0.625
  9
$INSUNITS
 70
1
  9
$DIMLUNIT
 70
2
  9
$DIMTXT
 40
2.5
  9
$GRIDMODE
 70
1
  9
$LUPREC
 70
4
  9
$PLIMMAX
 10
11.0
 20
8.5
  9
$PLIMMIN
 10
0.0
 20
0.0
  9
$PINSBASE
 10
0.9303625153642776
 20
0.3989653597492246
 30
0.0
  9
$DIMEXE
 40
1.25
  9
$DIMAUNIT
 70
0
  9
$AUNITS
 70
0
  0
ENDSEC
  0
SECTION
  2
TABLES
  0
TABLE
  2
VPORT
  5
8
100
AcDbSymbolTable
 70
1
  0
VPORT
  5
30
100
AcDbSymbolTableRecord
100
AcDbViewportTableRecord
  2
*Active
 70
0
 10
0.0
 20
0.0
 11
1.0
 21
1.0
 12
286.3055555555554861
 22
148.5
 13
0.0
 23
0.0
 14
10.0
 24
10.0
 15
10.0
 25
10.0
 16
0.0
 26
0.0
 36
1.0
 17
0.0
 27
0.0
 37
0.0
 40
297.0
 41
1.92798353909465
 42
50.0
 43
0.0
 44
0.0
 50
0.0
 51
0.0
 71
0
 72
100
 73
1
 74
3
 75
1
 76
1
 77
0
 78
0
281
0
 65
1
110
0.0
120
0.0
130
0.0
111
1.0
121
0.0
131
0.0
112
0.0
122
1.0
132
0.0
 79
0
146
0.0
  0
ENDTAB
  0
TABLE
  2
LTYPE
  5
5
100
AcDbSymbolTable
 70
21
  0
LTYPE
  5
14
100
AcDbSymbolTableRecord
100
AcDbLinetypeTableRecord
  2
ByBlock
 70
0
  3

 72
65
 73
0
 40
0.0
  0
LTYPE
  5
15
100
AcDbSymbolTableRecord
100
AcDbLinetypeTableRecord
  2
ByLayer
 70
0
  3

 72
65
 73
0
 40
0.0
  0
LTYPE
  5
16
100
AcDbSymbolTableRecord
100
AcDbLinetypeTableRecord
  2
CONTINUOUS
 70
0
  3
Solid line
 72
65
 73
0
 40
0.0
  0
LTYPE
  5
31
100
AcDbSymbolTableRecord
100
AcDbLinetypeTableRecord
  2
DOT
 70
0
  3
Dot . . . . . . . . . . . . . . . . . . . . . .
 72
65
 73
2
 40
6.3499999999999996
 49
0.0
 74
0
 49
-6.3499999999999996
 74
0
  0
LTYPE
  5
32
100
AcDbSymbolTableRecord
100
AcDbLinetypeTableRecord
  2
DOT2
 70
0
  3
Dot (.5x) .....................................
 72
65
 73
2
 40
3.1749999999999998
 49
0.0
 74
0
 49
-3.1749999999999998
 74
0
  0
LTYPE
  5
33
100
AcDbSymbolTableRecord
100
AcDbLinetypeTableRecord
  2
DOTX2
 70
0
  3
Dot (2x) .  .  .  .  .  .  .  .  .  .  .  .  .
 72
65
 73
2
 40
12.6999999999999993
 49
0.0
 74
0
 49
-12.6999999999999993
 74
0
  0
LTYPE
  5
34
100
AcDbSymbolTableRecord
100
AcDbLinetypeTableRecord
  2
DASHED
 70
0
  3
Dashed __ __ __ __ __ __ __ __ __ __ __ __ __ _
 72
65
 73
2
 40
19.0500000000000007
 49
12.6999999999999993
 74
0
 49
-6.3499999999999996
 74
0
  0
LTYPE
  5
35
100
AcDbSymbolTableRecord
100
AcDbLinetypeTableRecord
  2
DASHED2
 70
0
  3
Dashed (.5x) _ _ _ _ _ _ _ _ _ _ _ _ _ _ _ _ _
 72
65
 73
2
 40
9.5250000000000004
 49
6.3499999999999996
 74
0
 49
-3.1749999999999998
 74
0
  0
LTYPE
  5
36
100
AcDbSymbolTableRecord
100
AcDbLinetypeTableRecord
  2
DASHEDX2
 70
0
  3
Dashed (2x) ____  ____  ____  ____  ____  ___
 72
65
 73
2
 40
38.1000000000000014
 49
25.3999999999999986
 74
0
 49
-12.6999999999999993
 74
0
  0
LTYPE
  5
37
100
AcDbSymbolTableRecord
100
AcDbLinetypeTableRecord
  2
DASHDOT
 70
0
  3
Dash dot __ . __ . __ . __ . __ . __ . __ . __
 72
65
 73
4
 40
25.3999999999999986
 49
12.6999999999999993
 74
0
 49
-6.3499999999999996
 74
0
 49
0.0
 74
0
 49
-6.3499999999999996
 74
0
  0
LTYPE
  5
38
100
AcDbSymbolTableRecord
100
AcDbLinetypeTableRecord
  2
DASHDOT2
 70
0
  3
Dash dot (.5x) _._._._._._._._._._._._._._._.
 72
65
 73
4
 40
12.6999999999999993
 49
6.3499999999999996
 74
0
 49
-3.1749999999999998
 74
0
 49
0.0
 74
0
 49
-3.1749999999999998
 74
0
  0
LTYPE
  5
39
100
AcDbSymbolTableRecord
100
AcDbLinetypeTableRecord
  2
DASHDOTX2
 70
0
  3
Dash dot (2x) ____  .  ____  .  ____  .  ___
 72
65
 73
4
 40
50.7999999999999972
 49
25.3999999999999986
 74
0
 49
-12.6999999999999993
 74
0
 49
0.0
 74
0
 49
-12.6999999999999993
 74
0
  0
LTYPE
  5
3A
100
AcDbSymbolTableRecord
100
AcDbLinetypeTableRecord
  2
DIVIDE
 70
0
  3
Divide ____ . . ____ . . ____ . . ____ . . ____
 72
65
 73
6
 40
31.75
 49
12.6999999999999993
 74
0
 49
-6.3499999999999996
 74
0
 49
0.0
 74
0
 49
-6.3499999999999996
 74
0
 49
0.0
 74
0
 49
-6.3499999999999996
 74
0
  0
LTYPE
  5
3B
100
AcDbSymbolTableRecord
100
AcDbLinetypeTableRecord
  2
DIVIDE2
 70
0
  3
Divide (.5x) __..__..__..__..__..__..__..__.._
 72
65
 73
6
 40
15.875
 49
6.3499999999999996
 74
0
 49
-3.1749999999999998
 74
0
 49
0.0
 74
0
 49
-3.1749999999999998
 74
0
 49
0.0
 74
0
 49
-3.1749999999999998
 74
0
  0
LTYPE
  5
3C
100
AcDbSymbolTableRecord
100
AcDbLinetypeTableRecord
  2
DIVIDEX2
 70
0
  3
Divide (2x) ________  .  .  ________  .  .  _
 72
65
 73
6
 40
63.5
 49
25.3999999999999986
 74
0
 49
-12.6999999999999993
 74
0
 49
0.0
 74
0
 49
-12.6999999999999993
 74
0
 49
0.0
 74
0
 49
-12.6999999999999993
 74
0
  0
LTYPE
  5
3D
100
AcDbSymbolTableRecord
100
AcDbLinetypeTableRecord
  2
CENTER
 70
0
  3
Center ____ _ ____ _ ____ _ ____ _ ____ _ ____
 72
65
 73
4
 40
50.7999999999999972
 49
31.75
 74
0
 49
-6.3499999999999996
 74
0
 49
6.3499999999999996
 74
0
 49
-6.3499999999999996
 74
0
  0
LTYPE
  5
3E
100
AcDbSymbolTableRecord
100
AcDbLinetypeTableRecord
  2
CENTER2
 70
0
  3
Center (.5x) ___ _ ___ _ ___ _ ___ _ ___ _ ___
 72
65
 73
4
 40
28.5749999999999993
 49
19.0500000000000007
 74
0
 49
-3.1749999999999998
 74
0
 49
3.1749999999999998
 74
0
 49
-3.1749999999999998
 74
0
  0
LTYPE
  5
3F
100
AcDbSymbolTableRecord
100
AcDbLinetypeTableRecord
  2
CENTERX2
 70
0
  3
Center (2x) ________  __  ________  __  _____
 72
65
 73
4
 40
101.5999999999999943
 49
63.5
 74
0
 49
-12.6999999999999993
 74
0
 49
12.6999999999999993
 74
0
 49
-12.6999999999999993
 74
0
  0
LTYPE
  5
40
100
AcDbSymbolTableRecord
100
AcDbLinetypeTableRecord
  2
BORDER
 70
0
  3
Border __ __ . __ __ . __ __ . __ __ . __ __ .
 72
65
 73
6
 40
44.4500000000000028
 49
12.6999999999999993
 74
0
 49
-6.3499999999999996
 74
0
 49
12.6999999999999993
 74
0
 49
-6.3499999999999996
 74
0
 49
0.0
 74
0
 49
-6.3499999999999996
 74
0
  0
LTYPE
  5
41
100
AcDbSymbolTableRecord
100
AcDbLinetypeTableRecord
  2
BORDER2
 70
0
  3
Border (.5x) __.__.__.__.__.__.__.__.__.__.__.
 72
65
 73
6
 40
22.2250000000000014
 49
6.3499999999999996
 74
0
 49
-3.1749999999999998
 74
0
 49
6.3499999999999996
 74
0
 49
-3.1749999999999998
 74
0
 49
0.0
 74
0
 49
-3.1749999999999998
 74
0
  0
LTYPE
  5
42
100
AcDbSymbolTableRecord
100
AcDbLinetypeTableRecord
  2
BORDERX2
 70
0
  3
Border (2x) ____  ____  .  ____  ____  .  ___
 72
65
 73
6
 40
88.9000000000000057
 49
25.3999999999999986
 74
0
 49
-12.6999999999999993
 74
0
 49
25.3999999999999986
 74
0
 49
-12.6999999999999993
 74
0
 49
0.0
 74
0
 49
-12.6999999999999993
 74
0
  0
ENDTAB
  0
TABLE
  2
LAYER
  5
2
100
AcDbSymbolTable
 70
3
  0
LAYER
  5
10
100
AcDbSymbolTableRecord
100
AcDbLayerTableRecord
  2
0
 70
0
 62
7
  6
CONTINUOUS
370
0
390
F
  0
LAYER
  5
43
100
AcDbSymbolTableRecord
100
AcDbLayerTableRecord
  2
1
 70
1
 62
2
  6
DOT
370
0
390
F
  0
LAYER
  5
44
100
AcDbSymbolTableRecord
100
AcDbLayerTableRecord
  2
numbers
 70
0
 62
7
  6
CONTINUOUS
370
0
390
F
  0
ENDTAB
  0
TABLE
  2
STYLE
  5
3
100
AcDbSymbolTable
 70
1
  0
STYLE
  5
11
100
AcDbSymbolTableRecord
100
AcDbTextStyleTableRecord
  2
Standard
 70
0
 40
0.0
 41
0.75
 50
0.0
 71
0
 42
2.5
  3
txt
  4

  0
ENDTAB
  0
TABLE
  2
VIEW
  5
6
100
AcDbSymbolTable
 70
0
  0
ENDTAB
  0
TABLE
  2
UCS
  5
7
100
AcDbSymbolTable
 70
0
  0
ENDTAB
  0
TABLE
  2
APPID
  5
9
100
AcDbSymbolTable
 70
1
  0
APPID
  5
12
100
AcDbSymbolTableRecord
100
AcDbRegAppTableRecord
  2
ACAD
 70
0
  0
ENDTAB
  0
TABLE
  2
DIMSTYLE
  5
A
100
AcDbSymbolTable
 70
1
100
AcDbDimStyleTable
 71
0
  0
DIMSTYLE
105
27
100
AcDbSymbolTableRecord
100
AcDbDimStyleTableRecord
  2
Standard
 41
2.5
 42
0.625
 43
3.75
 44
1.25
 70
0
 73
0
 74
0
 77
1
 78
8
140
2.5
141
2.5
143
0.03937007874016
147
0.625
171
3
172
1
271
2
272
2
274
3
278
44
283
0
284
8
340
11
  0
ENDTAB
  0
TABLE
  2
BLOCK_RECORD
  5
1
100
AcDbSymbolTable
 70
1
  0
BLOCK_RECORD
  5
1F
100
AcDbSymbolTableRecord
100
AcDbBlockTableRecord
  2
*Model_Space
340
22
  0
BLOCK_RECORD
  5
1B
100
AcDbSymbolTableRecord
100
AcDbBlockTableRecord
  2
*Paper_Space
340
1E
  0
BLOCK_RECORD
  5
23
100
AcDbSymbolTableRecord
100
AcDbBlockTableRecord
  2
*Paper_Space0
340
26
  0
ENDTAB
  0
ENDSEC
  0
SECTION
  2
BLOCKS
  0
BLOCK
  5
20
100
AcDbEntity
  8
0
100
AcDbBlockBegin
  2
*Model_Space
 70
0
 10
0.0
 20
0.0
 30
0.0
  3
*Model_Space
  1

  0
ENDBLK
  5
21
100
AcDbEntity
  8
0
100
AcDbBlockEnd
  0
BLOCK
  5
1C
100
AcDbEntity
 67
1
  8
0
100
AcDbBlockBegin
  2
*Paper_Space
 70
0
 10
0.0
 20
0.0
 30
0.0
  3
*Paper_Space
  1

  0
ENDBLK
  5
1D
100
AcDbEntity
 67
1
  8
0
100
AcDbBlockEnd
  0
BLOCK
  5
24
100
AcDbEntity
  8
0
100
AcDbBlockBegin
  2
*Paper_Space0
 70
0
 10
0.0
 20
0.0
 30
0.0
  3
*Paper_Space0
  1

  0
ENDBLK
  5
25
100
AcDbEntity
  8
0
100
AcDbBlockEnd
  0
ENDSEC
  0
SECTION
  2
ENTITIES
  0
LINE
  5
45
100
AcDbEntity
100
AcDbLine
  8
1
 62
256
370
-1
  6
ByLayer
 10
0.5
 20
0.0
 30
0.0
 11
0.5
 21
0.5
 31
0.0
  0
LINE
  5
46
100
AcDbEntity
100
AcDbLine
  8
1
 62
256
370
-1
  6
ByLayer
 10
1.0
 20
0.0
 30
0.0
 11
1.0
 21
0.5
 31
0.0
  0
LINE
  5
47
100
AcDbEntity
100
AcDbLine
  8
1
 62
256
370
-1
  6
ByLayer
 10
1.0
 20
0.0
 30
0.0
 11
1.0
 21
1.0
 31
0.0
  0
LINE
  5
48
100
AcDbEntity
100
AcDbLine
  8
1
 62
256
370
-1
  6
ByLayer
 10
2.0
 20
0.0
 30
0.0
 11
2.0
 21
1.0
 31
0.0
  0
LINE
  5
49
100
AcDbEntity
100
AcDbLine
  8
1
 62
256
370
-1
  6
ByLayer
 10
3.0
 20
0.0
 30
0.0
 11
3.0
 21
1.0
 31
0.0
  0
LINE
  5
4A
100
AcDbEntity
100
AcDbLine
  8
1
 62
256
370
-1
  6
ByLayer
 10
4.0
 20
0.0
 30
0.0
 11
4.0
 21
1.0
 31
0.0
  0
LINE
  5
4B
100
AcDbEntity
100
AcDbLine
  8
1
 62
256
370
-1
  6
ByLayer
 10
5.0
 20
0.0
 30
0.0
 11
5.0
 21
1.0
 31
0.0
  0
LINE
  5
4C
100
AcDbEntity
100
AcDbLine
  8
1
 62
256
370
-1
  6
ByLayer
 10
6.0
 20
0.0
 30
0.0
 11
6.0
 21
1.0
 31
0.0
  0
LINE
  5
4D
100
AcDbEntity
100
AcDbLine
  8
1
 62
256
370
-1
  6
ByLayer
 10
7.0
 20
0.0
 30
0.0
 11
7.0
 21
1.0
 31
0.0
  0
LINE
  5
4E
100
AcDbEntity
100
AcDbLine
  8
1
 62
256
370
-1
  6
ByLayer
 10
8.0
 20
0.0
 30
0.0
 11
8.0
 21
1.0
 31
0.0
  0
LINE
  5
4F
100
AcDbEntity
100
AcDbLine
  8
1
 62
256
370
-1
  6
ByLayer
 10
9.0
 20
0.0
 30
0.0
 11
9.0
 21
1.0
 31
0.0
  0
LINE
  5
50
100
AcDbEntity
100
AcDbLine
  8
1
 62
256
370
-1
  6
ByLayer
 10
10.0
 20
0.0
 30
0.0
 11
10.0
 21
1.0
 31
0.0
  0
LINE
  5
51
100
AcDbEntity
100
AcDbLine
  8
1
 62
256
370
-1
  6
ByLayer
 10
11.0
 20
0.0
 30
0.0
 11
11.0
 21
1.0
 31
0.0
  0
LINE
  5
52
100
AcDbEntity
100
AcDbLine
  8
0
 62
256
370
-1
  6
ByLayer
 10
0.0
 20
0.0
 30
0.0
 11
-0.5735764363510462
 21
0.8191520442889917
 31
0.0
  0
LINE
  5
53
100
AcDbEntity
100
AcDbLine
  8
0
 62
256
370
-1
  6
ByLayer
 10
0.051197002768062
 20
0.0358485272719404
 30
0.0
 11
-0.0921971063196996
 21
0.2406365383441883
 31
0.0
  0
LINE
  5
54
100
AcDbEntity
100
AcDbLine
  8
0
 62
256
370
-1
  6
ByLayer
 10
0.102394005536124
 20
0.0716970545438808
 30
0.0
 11
-0.0410001035516375
 21
0.2764850656161287
 31
0.0
  0
LINE
  5
55
100
AcDbEntity
100
AcDbLine
  8
0
 62
256
370
-1
  6
ByLayer
 10
0.153591008304186
 20
0.1075455818158211
 30
0.0
 11
0.0101968992164244
 21
0.3123335928880691
 31
0.0
  0
LINE
  5
56
100
AcDbEntity
100
AcDbLine
  8
0
 62
256
370
-1
  6
ByLayer
 10
0.2047880110722479
 20
0.1433941090877615
 30
0.0
 11
-0.082000207103275
 21
0.5529701312322575
 31
0.0
  0
LINE
  5
57
100
AcDbEntity
100
AcDbLine
  8
0
 62
256
370
-1
  6
ByLayer
 10
0.2559850138403099
 20
0.1792426363597019
 30
0.0
 11
0.1125909047525484
 21
0.3840306474319499
 31
0.0
  0
LINE
  5
58
100
AcDbEntity
100
AcDbLine
  8
0
 62
256
370
-1
  6
ByLayer
 10
0.3071820166083719
 20
0.2150911636316423
 30
0.0
 11
0.1637879075206104
 21
0.4198791747038902
 31
0.0
  0
LINE
  5
59
100
AcDbEntity
100
AcDbLine
  8
0
 62
256
370
-1
  6
ByLayer
 10
0.3583790193764339
 20
0.2509396909035826
 30
0.0
 11
0.2149849102886725
 21
0.4557277019758305
 31
0.0
  0
LINE
  5
5A
100
AcDbEntity
100
AcDbLine
  8
0
 62
256
370
-1
  6
ByLayer
 10
0.4607730249125579
 20
0.3226367454474634
 30
0.0
 11
0.3173789158247966
 21
0.5274247565197112
 31
0.0
  0
LINE
  5
5B
100
AcDbEntity
100
AcDbLine
  8
0
 62
256
370
-1
  6
ByLayer
 10
0.5119700276806198
 20
0.3584852727194038
 30
0.0
 11
0.3685759185928585
 21
0.5632732837916516
 31
0.0
  0
LINE
  5
5C
100
AcDbEntity
100
AcDbLine
  8
0
 62
256
370
-1
  6
ByLayer
 10
0.5631670304486819
 20
0.3943337999913442
 30
0.0
 11
0.4197729213609203
 21
0.5991218110635923
 31
0.0
  0
LINE
  5
5D
100
AcDbEntity
100
AcDbLine
  8
0
 62
256
370
-1
  6
ByLayer
 10
0.6143640332167438
 20
0.4301823272632845
 30
0.0
 11
0.3275758150412208
 21
0.8397583494077805
 31
0.0
  0
LINE
  5
5E
100
AcDbEntity
100
AcDbLine
  8
0
 62
256
370
-1
  6
ByLayer
 10
0.6655610359848059
 20
0.4660308545352249
 30
0.0
 11
0.5221669268970441
 21
0.6708188656074731
 31
0.0
  0
LINE
  5
5F
100
AcDbEntity
100
AcDbLine
  8
0
 62
256
370
-1
  6
ByLayer
 10
0.7167580387528678
 20
0.5018793818071653
 30
0.0
 11
0.5733639296651062
 21
0.7066673928794133
 31
0.0
  0
LINE
  5
60
100
AcDbEntity
100
AcDbLine
  8
0
 62
256
370
-1
  6
ByLayer
 10
0.7679550415209299
 20
0.5377279090791056
 30
0.0
 11
0.6245609324331683
 21
0.7425159201513537
 31
0.0
  0
LINE
  5
61
100
AcDbEntity
100
AcDbLine
  8
0
 62
256
370
-1
  6
ByLayer
 10
0.4095760221444959
 20
0.286788218175523
 30
0.0
 11
-0.0206063051187885
 21
0.9011522513922668
 31
0.0
  0
LINE
  5
62
100
AcDbEntity
100
AcDbLine
  8
0
 62
256
370
-1
  6
ByLayer
 10
0.8703490470570537
 20
0.6094249636229865
 30
0.0
 11
0.7269549379692924
 21
0.8142129746952341
 31
0.0
  0
LINE
  5
63
100
AcDbEntity
100
AcDbLine
  8
0
 62
256
370
-1
  6
ByLayer
 10
0.9215460498251158
 20
0.6452734908949268
 30
0.0
 11
0.7781519407373546
 21
0.8500615019671744
 31
0.0
  0
LINE
  5
64
100
AcDbEntity
100
AcDbLine
  8
0
 62
256
370
-1
  6
ByLayer
 10
0.9727430525931777
 20
0.6811220181668671
 30
0.0
 11
0.8293489435054159
 21
0.8859100292391154
 31
0.0
  0
LINE
  5
65
100
AcDbEntity
100
AcDbLine
  8
0
 62
256
370
-1
  6
ByLayer
 10
1.0239400553612397
 20
0.7169705454388076
 30
0.0
 11
0.737151837185717
 21
1.1265465675833033
 31
0.0
  0
LINE
  5
66
100
AcDbEntity
100
AcDbLine
  8
0
 62
256
370
-1
  6
ByLayer
 10
1.0751370581293018
 20
0.752819072710748
 30
0.0
 11
0.9317429490415402
 21
0.9576070837829959
 31
0.0
  0
LINE
  5
67
100
AcDbEntity
100
AcDbLine
  8
0
 62
256
370
-1
  6
ByLayer
 10
1.1263340608973638
 20
0.7886675999826883
 30
0.0
 11
0.982939951809602
 21
0.9934556110549364
 31
0.0
  0
LINE
  5
68
100
AcDbEntity
100
AcDbLine
  8
0
 62
256
370
-1
  6
ByLayer
 10
1.1775310636654257
 20
0.8245161272546286
 30
0.0
 11
1.0341369545776642
 21
1.0293041383268766
 31
0.0
  0
LINE
  5
69
100
AcDbEntity
100
AcDbLine
  8
0
 62
256
370
-1
  6
ByLayer
 10
1.2799250692015496
 20
0.8962131817985095
 30
0.0
 11
1.1365309601137876
 21
1.1010011928707579
 31
0.0
  0
LINE
  5
6A
100
AcDbEntity
100
AcDbLine
  8
0
 62
256
370
-1
  6
ByLayer
 10
1.3311220719696117
 20
0.9320617090704498
 30
0.0
 11
1.1877279628818502
 21
1.1368497201426979
 31
0.0
  0
LINE
  5
6B
100
AcDbEntity
100
AcDbLine
  8
0
 62
256
370
-1
  6
ByLayer
 10
1.3823190747376737
 20
0.9679102363423902
 30
0.0
 11
1.2389249656499122
 21
1.1726982474146384
 31
0.0
  0
LINE
  5
6C
100
AcDbEntity
100
AcDbLine
  8
0
 62
256
370
-1
  6
ByLayer
 10
1.4335160775057356
 20
1.0037587636143306
 30
0.0
 11
1.1467278593302124
 21
1.4133347857588265
 31
0.0
  0
LINE
  5
6D
100
AcDbEntity
100
AcDbLine
  8
0
 62
256
370
-1
  6
ByLayer
 10
1.4847130802737976
 20
1.039607290886271
 30
0.0
 11
1.3413189711860358
 21
1.2443953019585194
 31
0.0
  0
LINE
  5
6E
100
AcDbEntity
100
AcDbLine
  8
0
 62
256
370
-1
  6
ByLayer
 10
1.5359100830418597
 20
1.0754558181582112
 30
0.0
 11
1.3925159739540982
 21
1.2802438292304594
 31
0.0
  0
LINE
  5
6F
100
AcDbEntity
100
AcDbLine
  8
0
 62
256
370
-1
  6
ByLayer
 10
1.5871070858099217
 20
1.1113043454301517
 30
0.0
 11
1.4437129767221599
 21
1.3160923565024001
 31
0.0
  0
LINE
  5
70
100
AcDbEntity
100
AcDbLine
  8
0
 62
256
370
-1
  6
ByLayer
 10
1.2287280664334876
 20
0.8603646545265691
 30
0.0
 11
0.7985457391702031
 21
1.474728687743313
 31
0.0
  0
LINE
  5
71
100
AcDbEntity
100
AcDbLine
  8
0
 62
256
370
-1
  6
ByLayer
 10
1.6895010913460455
 20
1.1830013999740325
 30
0.0
 11
1.5461069822582845
 21
1.3877894110462801
 31
0.0
  0
LINE
  5
72
100
AcDbEntity
100
AcDbLine
  8
0
 62
256
370
-1
  6
ByLayer
 10
1.7406980941141075
 20
1.218849927245973
 30
0.0
 11
1.5973039850263457
 21
1.4236379383182214
 31
0.0
  0
LINE
  5
73
100
AcDbEntity
100
AcDbLine
  8
0
 62
256
370
-1
  6
ByLayer
 10
1.7918950968821696
 20
1.2546984545179132
 30
0.0
 11
1.6485009877944097
 21
1.4594864655901592
 31
0.0
  0
LINE
  5
74
100
AcDbEntity
100
AcDbLine
  8
0
 62
256
370
-1
  6
ByLayer
 10
1.8430920996502316
 20
1.2905469817898536
 30
0.0
 11
1.5563038814747092
 21
1.7001230039343489
 31
0.0
  0
LINE
  5
75
100
AcDbEntity
100
AcDbLine
  8
0
 62
256
370
-1
  6
ByLayer
 10
1.8942891024182935
 20
1.326395509061794
 30
0.0
 11
1.7508949933305327
 21
1.5311835201340411
 31
0.0
  0
LINE
  5
76
100
AcDbEntity
100
AcDbLine
  8
0
 62
256
370
-1
  6
ByLayer
 10
1.9454861051863555
 20
1.3622440363337343
 30
0.0
 11
1.8020919960985953
 21
1.5670320474059807
 31
0.0
  0
LINE
  5
77
100
AcDbEntity
100
AcDbLine
  8
0
 62
256
370
-1
  6
ByLayer
 10
1.9966831079544176
 20
1.3980925636056747
 30
0.0
 11
1.8532889988666559
 21
1.6028805746779229
 31
0.0
  0
LINE
  5
78
100
AcDbEntity
100
AcDbLine
  8
0
 62
256
370
-1
  6
ByLayer
 10
2.0990771134905413
 20
1.4697896181495556
 30
0.0
 11
1.9556830044027811
 21
1.674577629221802
 31
0.0
  0
LINE
  5
79
100
AcDbEntity
100
AcDbLine
  8
0
 62
256
370
-1
  6
ByLayer
 10
2.1502741162586037
 20
1.505638145421496
 30
0.0
 11
2.0068800071708406
 21
1.7104261564937453
 31
0.0
  0
LINE
  5
7A
100
AcDbEntity
100
AcDbLine
  8
0
 62
256
370
-1
  6
ByLayer
 10
2.2014711190266656
 20
1.5414866726934362
 30
0.0
 11
2.0580770099389047
 21
1.7462746837656835
 31
0.0
  0
LINE
  5
7B
100
AcDbEntity
100
AcDbLine
  8
0
 62
256
370
-1
  6
ByLayer
 10
2.2526681217947275
 20
1.5773351999653766
 30
0.0
 11
1.9658799036192041
 21
1.9869112221098728
 31
0.0
  0
LINE
  5
7C
100
AcDbEntity
100
AcDbLine
  8
0
 62
256
370
-1
  6
ByLayer
 10
2.3038651245627895
 20
1.6131837272373171
 30
0.0
 11
2.1604710154750268
 21
1.8179717383095668
 31
0.0
  0
LINE
  5
7D
100
AcDbEntity
100
AcDbLine
  8
0
 62
256
370
-1
  6
ByLayer
 10
2.3550621273308514
 20
1.6490322545092573
 30
0.0
 11
2.2116680182430901
 21
1.853820265581505
 31
0.0
  0
LINE
  5
7E
100
AcDbEntity
100
AcDbLine
  8
0
 62
256
370
-1
  6
ByLayer
 10
2.4062591300989133
 20
1.6848807817811977
 30
0.0
 11
2.2628650210111516
 21
1.8896687928534459
 31
0.0
  0
LINE
  5
7F
100
AcDbEntity
100
AcDbLine
  8
0
 62
256
370
-1
  6
ByLayer
 10
2.0478801107224793
 20
1.4339410908776151
 30
0.0
 11
1.6176977834591943
 21
2.0483051240943597
 31
0.0
  0
LINE
  5
80
100
AcDbEntity
100
AcDbLine
  8
0
 62
256
370
-1
  6
ByLayer
 10
2.5086531356350372
 20
1.7565778363250786
 30
0.0
 11
2.3652590265472746
 21
1.9613658473973283
 31
0.0
  0
LINE
  5
81
100
AcDbEntity
100
AcDbLine
  8
0
 62
256
370
-1
  6
ByLayer
 10
2.5598501384030992
 20
1.792426363597019
 30
0.0
 11
2.4164560293153365
 21
1.9972143746692685
 31
0.0
  0
LINE
  5
82
100
AcDbEntity
100
AcDbLine
  8
0
 62
256
370
-1
  6
ByLayer
 10
2.6110471411711615
 20
1.8282748908689592
 30
0.0
 11
2.4676530320834003
 21
2.0330629019412072
 31
0.0
  0
LINE
  5
83
100
AcDbEntity
100
AcDbLine
  8
0
 62
256
370
-1
  6
ByLayer
 10
2.6622441439392235
 20
1.8641234181408997
 30
0.0
 11
2.3754559257637005
 21
2.2736994402853958
 31
0.0
  0
LINE
  5
84
100
AcDbEntity
100
AcDbLine
  8
0
 62
256
370
-1
  6
ByLayer
 10
2.7134411467072854
 20
1.8999719454128401
 30
0.0
 11
2.5700470376195255
 21
2.1047599564850858
 31
0.0
  0
LINE
  5
85
100
AcDbEntity
100
AcDbLine
  8
0
 62
256
370
-1
  6
ByLayer
 10
2.7646381494753474
 20
1.9358204726847803
 30
0.0
 11
2.6212440403875856
 21
2.1406084837570289
 31
0.0
  0
LINE
  5
86
100
AcDbEntity
100
AcDbLine
  8
0
 62
256
370
-1
  6
ByLayer
 10
2.8158351522434093
 20
1.9716689999567207
 30
0.0
 11
2.6724410431556462
 21
2.1764570110289712
 31
0.0
  0
LINE
  5
87
100
AcDbEntity
100
AcDbLine
  8
0
 62
256
370
-1
  6
ByLayer
 10
2.9182291577795332
 20
2.0433660545006016
 30
0.0
 11
2.7748350486917701
 21
2.2481540655728516
 31
0.0
  0
LINE
  5
88
100
AcDbEntity
100
AcDbLine
  8
0
 62
256
370
-1
  6
ByLayer
 10
2.9694261605475951
 20
2.079214581772542
 30
0.0
 11
2.8260320514598325
 21
2.284002592844792
 31
0.0
  0
LINE
  5
89
100
AcDbEntity
100
AcDbLine
  8
0
 62
256
370
-1
  6
ByLayer
 10
3.0206231633156571
 20
2.1150631090444825
 30
0.0
 11
2.8772290542278944
 21
2.3198511201167316
 31
0.0
  0
LINE
  5
8A
100
AcDbEntity
100
AcDbLine
  8
0
 62
256
370
-1
  6
ByLayer
 10
3.0718201660837194
 20
2.1509116363164225
 30
0.0
 11
2.7850319479081964
 21
2.5604876584609189
 31
0.0
  0
LINE
  5
8B
100
AcDbEntity
100
AcDbLine
  8
0
 62
256
370
-1
  6
ByLayer
 10
3.1230171688517814
 20
2.1867601635883629
 30
0.0
 11
2.979623059764017
 21
2.3915481746606142
 31
0.0
  0
LINE
  5
8C
100
AcDbEntity
100
AcDbLine
  8
0
 62
256
370
-1
  6
ByLayer
 10
3.1742141716198433
 20
2.2226086908603033
 30
0.0
 11
3.0308200625320825
 21
2.4273967019325506
 31
0.0
  0
LINE
  5
8D
100
AcDbEntity
100
AcDbLine
  8
0
 62
256
370
-1
  6
ByLayer
 10
3.2254111743879053
 20
2.2584572181322438
 30
0.0
 11
3.0820170653001422
 21
2.4632452292044937
 31
0.0
  0
LINE
  5
8E
100
AcDbEntity
100
AcDbLine
  8
0
 62
256
370
-1
  6
ByLayer
 10
2.8670321550114712
 20
2.0075175272286612
 30
0.0
 11
2.436849827748186
 21
2.6218815604454058
 31
0.0
  0
LINE
  5
8F
100
AcDbEntity
100
AcDbLine
  8
0
 62
256
370
-1
  6
ByLayer
 10
3.3278051799240291
 20
2.3301542726761246
 30
0.0
 11
3.184411070836271
 21
2.5349422837483679
 31
0.0
  0
LINE
  5
90
100
AcDbEntity
100
AcDbLine
  8
0
 62
256
370
-1
  6
ByLayer
 10
3.3790021826920911
 20
2.3660027999480651
 30
0.0
 11
3.2356080736043276
 21
2.5707908110203159
 31
0.0
  0
LINE
  5
91
100
AcDbEntity
100
AcDbLine
  8
0
 62
256
370
-1
  6
ByLayer
 10
3.430199185460153
 20
2.4018513272200055
 30
0.0
 11
3.2868050763723895
 21
2.6066393382922564
 31
0.0
  0
LINE
  5
92
100
AcDbEntity
100
AcDbLine
  8
0
 62
256
370
-1
  6
ByLayer
 10
3.4813961882282149
 20
2.4376998544919459
 30
0.0
 11
3.1946079700526915
 21
2.8472758766364428
 31
0.0
  0
LINE
  5
93
100
AcDbEntity
100
AcDbLine
  8
0
 62
256
370
-1
  6
ByLayer
 10
3.5325931909962773
 20
2.4735483817638859
 30
0.0
 11
3.389199081908512
 21
2.6783363928361394
 31
0.0
  0
LINE
  5
94
100
AcDbEntity
100
AcDbLine
  8
0
 62
256
370
-1
  6
ByLayer
 10
3.5837901937643393
 20
2.5093969090358264
 30
0.0
 11
3.4403960846765775
 21
2.714184920108075
 31
0.0
  0
LINE
  5
95
100
AcDbEntity
100
AcDbLine
  8
0
 62
256
370
-1
  6
ByLayer
 10
3.6349871965324012
 20
2.5452454363077668
 30
0.0
 11
3.4915930874446355
 21
2.7500334473800212
 31
0.0
  0
LINE
  5
96
100
AcDbEntity
100
AcDbLine
  8
0
 62
256
370
-1
  6
ByLayer
 10
3.7373812020685251
 20
2.6169424908516477
 30
0.0
 11
3.5939870929807589
 21
2.8217305019239021
 31
0.0
  0
LINE
  5
97
100
AcDbEntity
100
AcDbLine
  8
0
 62
256
370
-1
  6
ByLayer
 10
3.788578204836587
 20
2.6527910181235881
 30
0.0
 11
3.6451840957488257
 21
2.8575790291958358
 31
0.0
  0
LINE
  5
98
100
AcDbEntity
100
AcDbLine
  8
0
 62
256
370
-1
  6
ByLayer
 10
3.839775207604649
 20
2.6886395453955285
 30
0.0
 11
3.6963810985168912
 21
2.8934275564677705
 31
0.0
  0
LINE
  5
99
100
AcDbEntity
100
AcDbLine
  8
0
 62
256
370
-1
  6
ByLayer
 10
3.8909722103727109
 20
2.7244880726674685
 30
0.0
 11
3.6041839921971905
 21
3.1340640948119614
 31
0.0
  0
LINE
  5
9A
100
AcDbEntity
100
AcDbLine
  8
0
 62
256
370
-1
  6
ByLayer
 10
3.9421692131407728
 20
2.7603365999394089
 30
0.0
 11
3.7987751040530142
 21
2.9651246110116531
 31
0.0
  0
LINE
  5
9B
100
AcDbEntity
100
AcDbLine
  8
0
 62
256
370
-1
  6
ByLayer
 10
3.9933662159088352
 20
2.7961851272113494
 30
0.0
 11
3.849972106821077
 21
3.0009731382835922
 31
0.0
  0
LINE
  5
9C
100
AcDbEntity
100
AcDbLine
  8
0
 62
256
370
-1
  6
ByLayer
 10
4.0445632186768972
 20
2.8320336544832898
 30
0.0
 11
3.901169109589131
 21
3.0368216655555447
 31
0.0
  0
LINE
  5
9D
100
AcDbEntity
100
AcDbLine
  8
0
 62
256
370
-1
  6
ByLayer
 10
3.6861841993004631
 20
2.5810939635797072
 30
0.0
 11
3.2560018720371793
 21
3.1954579967964505
 31
0.0
  0
LINE
  5
9E
100
AcDbEntity
100
AcDbLine
  8
0
 62
256
370
-1
  6
ByLayer
 10
4.146957224213021
 20
2.9037307090271707
 30
0.0
 11
4.0035631151252655
 21
3.1085187200994104
 31
0.0
  0
LINE
  5
9F
100
AcDbEntity
100
AcDbLine
  8
0
 62
256
370
-1
  6
ByLayer
 10
4.1981542269810825
 20
2.9395792362991111
 30
0.0
 11
4.0547601178933181
 21
3.1443672473713637
 31
0.0
  0
LINE
  5
A0
100
AcDbEntity
100
AcDbLine
  8
0
 62
256
370
-1
  6
ByLayer
 10
4.2493512297491449
 20
2.9754277635710515
 30
0.0
 11
4.1059571206613859
 21
3.1802157746432962
 31
0.0
  0
LINE
  5
A1
100
AcDbEntity
100
AcDbLine
  8
0
 62
256
370
-1
  6
ByLayer
 10
4.3005482325172073
 20
3.011276290842992
 30
0.0
 11
4.0137600143416812
 21
3.4208523129874906
 31
0.0
  0
LINE
  5
A2
100
AcDbEntity
100
AcDbLine
  8
0
 62
256
370
-1
  6
ByLayer
 10
4.3517452352852688
 20
3.047124818114932
 30
0.0
 11
4.2083511261975088
 21
3.2519128291871771
 31
0.0
  0
LINE
  5
A3
100
AcDbEntity
100
AcDbLine
  8
0
 62
256
370
-1
  6
ByLayer
 10
4.4029422380533312
 20
3.0829733453868724
 30
0.0
 11
4.2595481289655677
 21
3.2877613564591228
 31
0.0
  0
LINE
  5
A4
100
AcDbEntity
100
AcDbLine
  8
0
 62
256
370
-1
  6
ByLayer
 10
4.4541392408213927
 20
3.1188218726588128
 30
0.0
 11
4.3107451317336292
 21
3.3236098837310646
 31
0.0
  0
LINE
  5
A5
100
AcDbEntity
100
AcDbLine
  8
0
 62
256
370
-1
  6
ByLayer
 10
4.5565332463575166
 20
3.1905189272026937
 30
0.0
 11
4.4131391372697539
 21
3.3953069382749432
 31
0.0
  0
LINE
  5
A6
100
AcDbEntity
100
AcDbLine
  8
0
 62
256
370
-1
  6
ByLayer
 10
4.6077302491255789
 20
3.2263674544746341
 30
0.0
 11
4.4643361400378119
 21
3.4311554655468894
 31
0.0
  0
LINE
  5
A7
100
AcDbEntity
100
AcDbLine
  8
0
 62
256
370
-1
  6
ByLayer
 10
4.6589272518936404
 20
3.2622159817465746
 30
0.0
 11
4.5155331428058725
 21
3.4670039928188321
 31
0.0
  0
LINE
  5
A8
100
AcDbEntity
100
AcDbLine
  8
0
 62
256
370
-1
  6
ByLayer
 10
4.7101242546617028
 20
3.2980645090185146
 30
0.0
 11
4.4233360364861802
 21
3.7076405311630101
 31
0.0
  0
LINE
  5
A9
100
AcDbEntity
100
AcDbLine
  8
0
 62
256
370
-1
  6
ByLayer
 10
4.7613212574297652
 20
3.333913036290455
 30
0.0
 11
4.6179271483420115
 21
3.5387010473626908
 31
0.0
  0
LINE
  5
AA
100
AcDbEntity
100
AcDbLine
  8
0
 62
256
370
-1
  6
ByLayer
 10
4.8125182601978267
 20
3.3697615635623954
 30
0.0
 11
4.669124151110065
 21
3.574549574634645
 31
0.0
  0
LINE
  5
AB
100
AcDbEntity
100
AcDbLine
  8
0
 62
256
370
-1
  6
ByLayer
 10
4.8637152629658891
 20
3.4056100908343359
 30
0.0
 11
4.7203211538781344
 21
3.6103981019065743
 31
0.0
  0
LINE
  5
AC
100
AcDbEntity
100
AcDbLine
  8
0
 62
256
370
-1
  6
ByLayer
 10
4.5053362435894551
 20
3.1546703999307533
 30
0.0
 11
4.075153916326169
 21
3.7690344331474988
 31
0.0
  0
LINE
  5
AD
100
AcDbEntity
100
AcDbLine
  8
0
 62
256
370
-1
  6
ByLayer
 10
4.966109268502013
 20
3.4773071453782167
 30
0.0
 11
4.8227151594142459
 21
3.6820951564504729
 31
0.0
  0
LINE
  5
AE
100
AcDbEntity
100
AcDbLine
  8
0
 62
256
370
-1
  6
ByLayer
 10
5.0173062712700744
 20
3.5131556726501572
 30
0.0
 11
4.8739121621823136
 21
3.7179436837224054
 31
0.0
  0
LINE
  5
AF
100
AcDbEntity
100
AcDbLine
  8
0
 62
256
370
-1
  6
ByLayer
 10
5.0685032740381368
 20
3.5490041999220976
 30
0.0
 11
4.9251091649503751
 21
3.7537922109943453
 31
0.0
  0
LINE
  5
B0
100
AcDbEntity
100
AcDbLine
  8
0
 62
256
370
-1
  6
ByLayer
 10
5.1197002768061983
 20
3.584852727194038
 30
0.0
 11
4.8329120586306731
 21
3.9944287493385371
 31
0.0
  0
LINE
  5
B1
100
AcDbEntity
100
AcDbLine
  8
0
 62
256
370
-1
  6
ByLayer
 10
5.1708972795742607
 20
3.620701254465978
 30
0.0
 11
5.0275031704865007
 21
3.8254892655382235
 31
0.0
  0
LINE
  5
B2
100
AcDbEntity
100
AcDbLine
  8
0
 62
256
370
-1
  6
ByLayer
 10
5.2220942823423231
 20
3.6565497817379184
 30
0.0
 11
5.0787001732545525
 21
3.8613377928101791
 31
0.0
  0
LINE
  5
B3
100
AcDbEntity
100
AcDbLine
  8
0
 62
256
370
-1
  6
ByLayer
 10
5.2732912851103846
 20
3.6923983090098589
 30
0.0
 11
5.1298971760226229
 21
3.8971863200821075
 31
0.0
  0
LINE
  5
B4
100
AcDbEntity
100
AcDbLine
  8
0
 62
256
370
-1
  6
ByLayer
 10
5.3756852906465085
 20
3.7640953635537397
 30
0.0
 11
5.2322911815587423
 21
3.9688833746259955
 31
0.0
  0
LINE
  5
B5
100
AcDbEntity
100
AcDbLine
  8
0
 62
256
370
-1
  6
ByLayer
 10
5.4268822934145708
 20
3.7999438908256802
 30
0.0
 11
5.2834881843268127
 21
4.0047319018979239
 31
0.0
  0
LINE
  5
B6
100
AcDbEntity
100
AcDbLine
  8
0
 62
256
370
-1
  6
ByLayer
 10
5.4780792961826323
 20
3.8357924180976206
 30
0.0
 11
5.3346851870948706
 21
4.0405804291698688
 31
0.0
  0
LINE
  5
B7
100
AcDbEntity
100
AcDbLine
  8
0
 62
256
370
-1
  6
ByLayer
 10
5.5292762989506947
 20
3.8716409453695606
 30
0.0
 11
5.2424880807751713
 21
4.2812169675140579
 31
0.0
  0
LINE
  5
B8
100
AcDbEntity
100
AcDbLine
  8
0
 62
256
370
-1
  6
ByLayer
 10
5.5804733017187562
 20
3.907489472641501
 30
0.0
 11
5.4370791926309998
 21
4.1122774837137426
 31
0.0
  0
LINE
  5
B9
100
AcDbEntity
100
AcDbLine
  8
0
 62
256
370
-1
  6
ByLayer
 10
5.6316703044868186
 20
3.9433379999134415
 30
0.0
 11
5.4882761953990506
 21
4.1481260109856972
 31
0.0
  0
LINE
  5
BA
100
AcDbEntity
100
AcDbLine
  8
0
 62
256
370
-1
  6
ByLayer
 10
5.682867307254881
 20
3.9791865271853819
 30
0.0
 11
5.5394731981671077
 21
4.1839745382576456
 31
0.0
  0
LINE
  5
BB
100
AcDbEntity
100
AcDbLine
  8
0
 62
256
370
-1
  6
ByLayer
 10
5.324488287878447
 20
3.7282468362817993
 30
0.0
 11
4.8943059606151609
 21
4.3426108694985448
 31
0.0
  0
LINE
  5
BC
100
AcDbEntity
100
AcDbLine
  8
0
 62
256
370
-1
  6
ByLayer
 10
5.7852613127910049
 20
4.0508835817292628
 30
0.0
 11
5.6418672037032476
 21
4.2556715928015052
 31
0.0
  0
LINE
  5
BD
100
AcDbEntity
100
AcDbLine
  8
0
 62
256
370
-1
  6
ByLayer
 10
5.8364583155590664
 20
4.0867321090012032
 30
0.0
 11
5.6930642064712984
 21
4.2915201200734598
 31
0.0
  0
LINE
  5
BE
100
AcDbEntity
100
AcDbLine
  8
0
 62
256
370
-1
  6
ByLayer
 10
5.8876553183271287
 20
4.1225806362731436
 30
0.0
 11
5.7442612092393661
 21
4.3273686473453923
 31
0.0
  0
LINE
  5
BF
100
AcDbEntity
100
AcDbLine
  8
0
 62
256
370
-1
  6
ByLayer
 10
5.9388523210951902
 20
4.1584291635450841
 30
0.0
 11
5.652064102919665
 21
4.568005185689584
 31
0.0
  0
LINE
  5
C0
100
AcDbEntity
100
AcDbLine
  8
0
 62
256
370
-1
  6
ByLayer
 10
5.9900493238632526
 20
4.1942776908170245
 30
0.0
 11
5.8466552147754971
 21
4.3990657018892643
 31
0.0
  0
LINE
  5
C1
100
AcDbEntity
100
AcDbLine
  8
0
 62
256
370
-1
  6
ByLayer
 10
6.0412463266313141
 20
4.2301262180889649
 30
0.0
 11
5.897852217543555
 21
4.43491422916121
 31
0.0
  0
LINE
  5
C2
100
AcDbEntity
100
AcDbLine
  8
0
 62
256
370
-1
  6
ByLayer
 10
6.0924433293993765
 20
4.2659747453609054
 30
0.0
 11
5.9490492203116165
 21
4.4707627564331514
 31
0.0
  0
LINE
  5
C3
100
AcDbEntity
100
AcDbLine
  8
0
 62
256
370
-1
  6
ByLayer
 10
6.1948373349355004
 20
4.3376717999047854
 30
0.0
 11
6.0514432258477324
 21
4.5424598109770429
 31
0.0
  0
LINE
  5
C4
100
AcDbEntity
100
AcDbLine
  8
0
 62
256
370
-1
  6
ByLayer
 10
6.2460343377035628
 20
4.3735203271767258
 30
0.0
 11
6.1026402286157992
 21
4.5783083382489762
 31
0.0
  0
LINE
  5
C5
100
AcDbEntity
100
AcDbLine
  8
0
 62
256
370
-1
  6
ByLayer
 10
6.2972313404716243
 20
4.4093688544486662
 30
0.0
 11
6.1538372313838563
 21
4.6141568655209229
 31
0.0
  0
LINE
  5
C6
100
AcDbEntity
100
AcDbLine
  8
0
 62
256
370
-1
  6
ByLayer
 10
6.3484283432396866
 20
4.4452173817206067
 30
0.0
 11
6.0616401250641649
 21
4.8547934038651013
 31
0.0
  0
LINE
  5
C7
100
AcDbEntity
100
AcDbLine
  8
0
 62
256
370
-1
  6
ByLayer
 10
6.3996253460077481
 20
4.4810659089925471
 30
0.0
 11
6.2562312369199917
 21
4.6858539200647886
 31
0.0
  0
LINE
  5
C8
100
AcDbEntity
100
AcDbLine
  8
0
 62
256
370
-1
  6
ByLayer
 10
6.4508223487758105
 20
4.5169144362644875
 30
0.0
 11
6.3074282396880488
 21
4.7217024473367362
 31
0.0
  0
LINE
  5
C9
100
AcDbEntity
100
AcDbLine
  8
0
 62
256
370
-1
  6
ByLayer
 10
6.502019351543872
 20
4.552762963536428
 30
0.0
 11
6.358625242456112
 21
4.7575509746086739
 31
0.0
  0
LINE
  5
CA
100
AcDbEntity
100
AcDbLine
  8
0
 62
256
370
-1
  6
ByLayer
 10
6.1436403321674389
 20
4.3018232726328449
 30
0.0
 11
5.7134580049041546
 21
4.9161873058495882
 31
0.0
  0
LINE
  5
CB
100
AcDbEntity
100
AcDbLine
  8
0
 62
256
370
-1
  6
ByLayer
 10
6.6044133570799968
 20
4.6244600180803088
 30
0.0
 11
6.4610192479922413
 21
4.8292480291525477
 31
0.0
  0
LINE
  5
CC
100
AcDbEntity
100
AcDbLine
  8
0
 62
256
370
-1
  6
ByLayer
 10
6.6556103598480583
 20
4.6603085453522493
 30
0.0
 11
6.5122162507603027
 21
4.8650965564244881
 31
0.0
  0
LINE
  5
CD
100
AcDbEntity
100
AcDbLine
  8
0
 62
256
370
-1
  6
ByLayer
 10
6.7068073626161206
 20
4.6961570726241897
 30
0.0
 11
6.5634132535283571
 21
4.900945083696441
 31
0.0
  0
LINE
  5
CE
100
AcDbEntity
100
AcDbLine
  8
0
 62
256
370
-1
  6
ByLayer
 10
6.7580043653841821
 20
4.7320055998961301
 30
0.0
 11
6.4712161472086551
 21
5.1415816220406318
 31
0.0
  0
LINE
  5
CF
100
AcDbEntity
100
AcDbLine
  8
0
 62
256
370
-1
  6
ByLayer
 10
6.8092013681522445
 20
4.7678541271680706
 30
0.0
 11
6.6658072590644908
 21
4.9726421382403077
 31
0.0
  0
LINE
  5
D0
100
AcDbEntity
100
AcDbLine
  8
0
 62
256
370
-1
  6
ByLayer
 10
6.860398370920306
 20
4.803702654440011
 30
0.0
 11
6.7170042618325567
 21
5.0084906655122428
 31
0.0
  0
LINE
  5
D1
100
AcDbEntity
100
AcDbLine
  8
0
 62
256
370
-1
  6
ByLayer
 10
6.9115953736883684
 20
4.8395511817119514
 30
0.0
 11
6.7682012646006102
 21
5.0443391927841956
 31
0.0
  0
LINE
  5
D2
100
AcDbEntity
100
AcDbLine
  8
0
 62
256
370
-1
  6
ByLayer
 10
7.0139893792244923
 20
4.9112482362558314
 30
0.0
 11
6.8705952701367474
 21
5.116036247328057
 31
0.0
  0
LINE
  5
D3
100
AcDbEntity
100
AcDbLine
  8
0
 62
256
370
-1
  6
ByLayer
 10
7.0651863819925547
 20
4.9470967635277718
 30
0.0
 11
6.9217922729047849
 21
5.1518847746000338
 31
0.0
  0
LINE
  5
D4
100
AcDbEntity
100
AcDbLine
  8
0
 62
256
370
-1
  6
ByLayer
 10
7.1163833847606162
 20
4.9829452907997123
 30
0.0
 11
6.9729892756728535
 21
5.1877333018719609
 31
0.0
  0
LINE
  5
D5
100
AcDbEntity
100
AcDbLine
  8
0
 62
256
370
-1
  6
ByLayer
 10
7.1675803875286785
 20
5.0187938180716527
 30
0.0
 11
6.8807921693531551
 21
5.42836984021615
 31
0.0
  0
LINE
  5
D6
100
AcDbEntity
100
AcDbLine
  8
0
 62
256
370
-1
  6
ByLayer
 10
7.21877739029674
 20
5.0546423453435931
 30
0.0
 11
7.0753832812089854
 21
5.2594303564158311
 31
0.0
  0
LINE
  5
D7
100
AcDbEntity
100
AcDbLine
  8
0
 62
256
370
-1
  6
ByLayer
 10
7.2699743930648024
 20
5.0904908726155336
 30
0.0
 11
7.1265802839770487
 21
5.2952788836877707
 31
0.0
  0
LINE
  5
D8
100
AcDbEntity
100
AcDbLine
  8
0
 62
256
370
-1
  6
ByLayer
 10
7.3211713958328639
 20
5.126339399887474
 30
0.0
 11
7.1777772867450826
 21
5.3311274109597502
 31
0.0
  0
LINE
  5
D9
100
AcDbEntity
100
AcDbLine
  8
0
 62
256
370
-1
  6
ByLayer
 10
6.9627923764564299
 20
4.8753997089838919
 30
0.0
 11
6.5326100491931491
 21
5.4897637422006316
 31
0.0
  0
LINE
  5
DA
100
AcDbEntity
100
AcDbLine
  8
0
 62
256
370
-1
  6
ByLayer
 10
7.4235654013689878
 20
5.1980364544313549
 30
0.0
 11
7.2801712922812261
 21
5.4028244655036044
 31
0.0
  0
LINE
  5
DB
100
AcDbEntity
100
AcDbLine
  8
0
 62
256
370
-1
  6
ByLayer
 10
7.4747624041370502
 20
5.2338849817032953
 30
0.0
 11
7.3313682950493035
 21
5.4386729927755226
 31
0.0
  0
LINE
  5
DC
100
AcDbEntity
100
AcDbLine
  8
0
 62
256
370
-1
  6
ByLayer
 10
7.5259594069051126
 20
5.2697335089752357
 30
0.0
 11
7.3825652978173579
 21
5.4745215200474737
 31
0.0
  0
LINE
  5
DD
100
AcDbEntity
100
AcDbLine
  8
0
 62
256
370
-1
  6
ByLayer
 10
7.5771564096731741
 20
5.3055820362471762
 30
0.0
 11
7.2903681914976515
 21
5.7151580583916717
 31
0.0
  0
LINE
  5
DE
100
AcDbEntity
100
AcDbLine
  8
0
 62
256
370
-1
  6
ByLayer
 10
7.6283534124412364
 20
5.3414305635191166
 30
0.0
 11
7.4849593033534845
 21
5.5462185745913501
 31
0.0
  0
LINE
  5
DF
100
AcDbEntity
100
AcDbLine
  8
0
 62
256
370
-1
  6
ByLayer
 10
7.6795504152092979
 20
5.377279090791057
 30
0.0
 11
7.5361563061215362
 21
5.5820671018633057
 31
0.0
  0
LINE
  5
E0
100
AcDbEntity
100
AcDbLine
  8
0
 62
256
370
-1
  6
ByLayer
 10
7.7307474179773603
 20
5.4131276180629975
 30
0.0
 11
7.5873533088895835
 21
5.6179156291352665
 31
0.0
  0
LINE
  5
E1
100
AcDbEntity
100
AcDbLine
  8
0
 62
256
370
-1
  6
ByLayer
 10
7.8331414235134842
 20
5.4848246726068774
 30
0.0
 11
7.6897473144257251
 21
5.6896126836791234
 31
0.0
  0
LINE
  5
E2
100
AcDbEntity
100
AcDbLine
  8
0
 62
256
370
-1
  6
ByLayer
 10
7.8843384262815457
 20
5.5206731998788179
 30
0.0
 11
7.7409443171937715
 21
5.7254612109510852
 31
0.0
  0
LINE
  5
E3
100
AcDbEntity
100
AcDbLine
  8
0
 62
256
370
-1
  6
ByLayer
 10
7.9355354290496081
 20
5.5565217271507583
 30
0.0
 11
7.7921413199618286
 21
5.7613097382230327
 31
0.0
  0
LINE
  5
E4
100
AcDbEntity
100
AcDbLine
  8
0
 62
256
370
-1
  6
ByLayer
 10
7.9867324318176705
 20
5.5923702544226987
 30
0.0
 11
7.6999442136421541
 21
6.0019462765671845
 31
0.0
  0
LINE
  5
E5
100
AcDbEntity
100
AcDbLine
  8
0
 62
256
370
-1
  6
ByLayer
 10
8.0379294345857328
 20
5.6282187816946392
 30
0.0
 11
7.8945353254979551
 21
5.8330067927669091
 31
0.0
  0
LINE
  5
E6
100
AcDbEntity
100
AcDbLine
  8
0
 62
256
370
-1
  6
ByLayer
 10
8.0891264373537943
 20
5.6640673089665796
 30
0.0
 11
7.9457323282660477
 21
5.8688553200388069
 31
0.0
  0
LINE
  5
E7
100
AcDbEntity
100
AcDbLine
  8
0
 62
256
370
-1
  6
ByLayer
 10
8.1403234401218558
 20
5.6999158362385201
 30
0.0
 11
7.9969293310340923
 21
5.9047038473107714
 31
0.0
  0
LINE
  5
E8
100
AcDbEntity
100
AcDbLine
  8
0
 62
256
370
-1
  6
ByLayer
 10
7.7819444207454218
 20
5.448976145334937
 30
0.0
 11
7.3517620934821357
 21
6.0633401785516847
 31
0.0
  0
LINE
  5
E9
100
AcDbEntity
100
AcDbLine
  8
0
 62
256
370
-1
  6
ByLayer
 10
8.2427174456579806
 20
5.7716128907824009
 30
0.0
 11
8.0993233365702224
 21
5.9764009018546442
 31
0.0
  0
LINE
  5
EA
100
AcDbEntity
100
AcDbLine
  8
0
 62
256
370
-1
  6
ByLayer
 10
8.2939144484260421
 20
5.8074614180543414
 30
0.0
 11
8.150520339338291
 21
6.012249429126574
 31
0.0
  0
LINE
  5
EB
100
AcDbEntity
100
AcDbLine
  8
0
 62
256
370
-1
  6
ByLayer
 10
8.3451114511941036
 20
5.8433099453262818
 30
0.0
 11
8.2017173421063561
 21
6.04809795639851
 31
0.0
  0
LINE
  5
EC
100
AcDbEntity
100
AcDbLine
  8
0
 62
256
370
-1
  6
ByLayer
 10
8.3963084539621651
 20
5.8791584725982222
 30
0.0
 11
8.1095202357866363
 21
6.2887344947427275
 31
0.0
  0
LINE
  5
ED
100
AcDbEntity
100
AcDbLine
  8
0
 62
256
370
-1
  6
ByLayer
 10
8.4475054567302283
 20
5.9150069998701627
 30
0.0
 11
8.3041113476424648
 21
6.1197950109424131
 31
0.0
  0
LINE
  5
EE
100
AcDbEntity
100
AcDbLine
  8
0
 62
256
370
-1
  6
ByLayer
 10
8.4987024594982898
 20
5.9508555271421031
 30
0.0
 11
8.3553083504105317
 21
6.1556435382143446
 31
0.0
  0
LINE
  5
EF
100
AcDbEntity
100
AcDbLine
  8
0
 62
256
370
-1
  6
ByLayer
 10
8.5498994622663513
 20
5.9867040544140435
 30
0.0
 11
8.4065053531785878
 21
6.1914920654862948
 31
0.0
  0
LINE
  5
F0
100
AcDbEntity
100
AcDbLine
  8
0
 62
256
370
-1
  6
ByLayer
 10
8.6522934678024761
 20
6.0584011089579235
 30
0.0
 11
8.5088993587147126
 21
6.2631891200301757
 31
0.0
  0
LINE
  5
F1
100
AcDbEntity
100
AcDbLine
  8
0
 62
256
370
-1
  6
ByLayer
 10
8.7034904705705376
 20
6.0942496362298639
 30
0.0
 11
8.5600963614827776
 21
6.2990376473021117
 31
0.0
  0
LINE
  5
F2
100
AcDbEntity
100
AcDbLine
  8
0
 62
256
370
-1
  6
ByLayer
 10
8.7546874733385991
 20
6.1300981635018044
 30
0.0
 11
8.6112933642508374
 21
6.3348861745740548
 31
0.0
  0
LINE
  5
F3
100
AcDbEntity
100
AcDbLine
  8
0
 62
256
370
-1
  6
ByLayer
 10
8.8058844761066624
 20
6.1659466907737448
 30
0.0
 11
8.5190962579311353
 21
6.5755227129182456
 31
0.0
  0
LINE
  5
F4
100
AcDbEntity
100
AcDbLine
  8
0
 62
256
370
-1
  6
ByLayer
 10
8.8570814788747239
 20
6.2017952180456852
 30
0.0
 11
8.7136873697869461
 21
6.4065832291179587
 31
0.0
  0
LINE
  5
F5
100
AcDbEntity
100
AcDbLine
  8
0
 62
256
370
-1
  6
ByLayer
 10
8.9082784816427854
 20
6.2376437453176257
 30
0.0
 11
8.7648843725550094
 21
6.4424317563898956
 31
0.0
  0
LINE
  5
F6
100
AcDbEntity
100
AcDbLine
  8
0
 62
256
370
-1
  6
ByLayer
 10
8.9594754844108486
 20
6.2734922725895661
 30
0.0
 11
8.8160813753230691
 21
6.4782802836618396
 31
0.0
  0
LINE
  5
F7
100
AcDbEntity
100
AcDbLine
  8
0
 62
256
370
-1
  6
ByLayer
 10
8.6010964650344146
 20
6.022552581685984
 30
0.0
 11
8.1709141377711276
 21
6.6369166149027281
 31
0.0
  0
LINE
  5
F8
100
AcDbEntity
100
AcDbLine
  8
0
 62
256
370
-1
  6
ByLayer
 10
9.0618694899469716
 20
6.345189327133447
 30
0.0
 11
8.9184753808592099
 21
6.5499773382056956
 31
0.0
  0
LINE
  5
F9
100
AcDbEntity
100
AcDbLine
  8
0
 62
256
370
-1
  6
ByLayer
 10
9.1130664927150331
 20
6.3810378544053874
 30
0.0
 11
8.9696723836272518
 21
6.5858258654776654
 31
0.0
  0
LINE
  5
FA
100
AcDbEntity
100
AcDbLine
  8
0
 62
256
370
-1
  6
ByLayer
 10
9.1642634954830964
 20
6.4168863816773278
 30
0.0
 11
9.0208693863953293
 21
6.6216743927495836
 31
0.0
  0
LINE
  5
FB
100
AcDbEntity
100
AcDbLine
  8
0
 62
256
370
-1
  6
ByLayer
 10
9.2154604982511579
 20
6.4527349089492683
 30
0.0
 11
8.9286722800756237
 21
6.8623109310937789
 31
0.0
  0
LINE
  5
FC
100
AcDbEntity
100
AcDbLine
  8
0
 62
256
370
-1
  6
ByLayer
 10
9.2666575010192194
 20
6.4885834362212087
 30
0.0
 11
9.123263391931431
 21
6.6933714472934946
 31
0.0
  0
LINE
  5
FD
100
AcDbEntity
100
AcDbLine
  8
0
 62
256
370
-1
  6
ByLayer
 10
9.3178545037872809
 20
6.5244319634931491
 30
0.0
 11
9.1744603946995475
 21
6.7292199745653587
 31
0.0
  0
LINE
  5
FE
100
AcDbEntity
100
AcDbLine
  8
0
 62
256
370
-1
  6
ByLayer
 10
9.3690515065553441
 20
6.5602804907650896
 30
0.0
 11
9.2256573974675558
 21
6.7650685018373755
 31
0.0
  0
LINE
  5
FF
100
AcDbEntity
100
AcDbLine
  8
0
 62
256
370
-1
  6
ByLayer
 10
9.4714455120914671
 20
6.6319775453089695
 30
0.0
 11
9.3280514030036894
 21
6.8367655563812413
 31
0.0
  0
LINE
  5
100
100
AcDbEntity
100
AcDbLine
  8
0
 62
256
370
-1
  6
ByLayer
 10
9.5226425148595304
 20
6.66782607258091
 30
0.0
 11
9.3792484057717456
 21
6.8726140836531906
 31
0.0
  0
LINE
  5
101
100
AcDbEntity
100
AcDbLine
  8
0
 62
256
370
-1
  6
ByLayer
 10
9.5738395176275919
 20
6.7036745998528504
 30
0.0
 11
9.4304454085398266
 21
6.9084626109251026
 31
0.0
  0
LINE
  5
102
100
AcDbEntity
100
AcDbLine
  8
0
 62
256
370
-1
  6
ByLayer
 10
9.6250365203956534
 20
6.7395231271247908
 30
0.0
 11
9.3382483022201299
 21
7.1490991492692899
 31
0.0
  0
LINE
  5
103
100
AcDbEntity
100
AcDbLine
  8
0
 62
256
370
-1
  6
ByLayer
 10
9.6762335231637149
 20
6.7753716543967313
 30
0.0
 11
9.5328394140759247
 21
6.9801596654690234
 31
0.0
  0
LINE
  5
104
100
AcDbEntity
100
AcDbLine
  8
0
 62
256
370
-1
  6
ByLayer
 10
9.7274305259317781
 20
6.8112201816686717
 30
0.0
 11
9.5840364168440182
 21
7.0160081927409177
 31
0.0
  0
LINE
  5
105
100
AcDbEntity
100
AcDbLine
  8
0
 62
256
370
-1
  6
ByLayer
 10
9.7786275286998396
 20
6.8470687089406121
 30
0.0
 11
9.6352334196120584
 21
7.0518567200128901
 31
0.0
  0
LINE
  5
106
100
AcDbEntity
100
AcDbLine
  8
0
 62
256
370
-1
  6
ByLayer
 10
9.4202485093234056
 20
6.5961290180370291
 30
0.0
 11
8.9900661820601151
 21
7.2104930512537821
 31
0.0
  0
LINE
  5
107
100
AcDbEntity
100
AcDbLine
  8
0
 62
256
370
-1
  6
ByLayer
 10
9.8298245314679011
 20
6.8829172362125526
 30
0.0
 11
9.2562480951168506
 21
7.7020692805015507
 31
0.0
  0
MTEXT
  5
108
100
AcDbEntity
100
AcDbMText
  8
numbers
 62
256
370
-1
  6
ByLayer
 10
0.2455756079379455
 20
1.3927284806400382
 30
0.0
 40
0.125
 41
100.0
 71
2
 72
0
  1
1
  7
normallatin1
 50
35.0
 73
1
 44
1.0
  0
MTEXT
  5
109
100
AcDbEntity
100
AcDbMText
  8
numbers
 62
256
370
-1
  6
ByLayer
 10
1.0647276522269375
 20
1.966304916991084
 30
0.0
 40
0.125
 41
100.0
 71
2
 72
0
  1
2
  7
normallatin1
 50
35.0
 73
1
 44
1.0
  0
MTEXT
  5
10A
100
AcDbEntity
100
AcDbMText
  8
numbers
 62
256
370
-1
  6
ByLayer
 10
1.8838796965159292
 20
2.5398813533421305
 30
0.0
 40
0.125
 41
100.0
 71
2
 72
0
  1
3
  7
normallatin1
 50
35.0
 73
1
 44
1.0
  0
MTEXT
  5
10B
100
AcDbEntity
100
AcDbMText
  8
numbers
 62
256
370
-1
  6
ByLayer
 10
2.7030317408049207
 20
3.1134577896931765
 30
0.0
 40
0.125
 41
100.0
 71
2
 72
0
  1
4
  7
normallatin1
 50
35.0
 73
1
 44
1.0
  0
MTEXT
  5
10C
100
AcDbEntity
100
AcDbMText
  8
numbers
 62
256
370
-1
  6
ByLayer
 10
3.5221837850939139
 20
3.6870342260442208
 30
0.0
 40
0.125
 41
100.0
 71
2
 72
0
  1
5
  7
normallatin1
 50
35.0
 73
1
 44
1.0
  0
MTEXT
  5
10D
100
AcDbEntity
100
AcDbMText
  8
numbers
 62
256
370
-1
  6
ByLayer
 10
4.3413358293829054
 20
4.2606106623952673
 30
0.0
 40
0.125
 41
100.0
 71
2
 72
0
  1
6
  7
normallatin1
 50
35.0
 73
1
 44
1.0
  0
MTEXT
  5
10E
100
AcDbEntity
100
AcDbMText
  8
numbers
 62
256
370
-1
  6
ByLayer
 10
5.1604878736718955
 20
4.8341870987463169
 30
0.0
 40
0.125
 41
100.0
 71
2
 72
0
  1
7
  7
normallatin1
 50
35.0
 73
1
 44
1.0
  0
MTEXT
  5
10F
100
AcDbEntity
100
AcDbMText
  8
numbers
 62
256
370
-1
  6
ByLayer
 10
5.9796399179608919
 20
5.4077635350973559
 30
0.0
 40
0.125
 41
100.0
 71
2
 72
0
  1
8
  7
normallatin1
 50
35.0
 73
1
 44
1.0
  0
MTEXT
  5
110
100
AcDbEntity
100
AcDbMText
  8
numbers
 62
256
370
-1
  6
ByLayer
 10
6.7987919622498749
 20
5.9813399714484135
 30
0.0
 40
0.125
 41
100.0
 71
2
 72
0
  1
9
  7
normallatin1
 50
35.0
 73
1
 44
1.0
  0
MTEXT
  5
111
100
AcDbEntity
100
AcDbMText
  8
numbers
 62
256
370
-1
  6
ByLayer
 10
7.617944006538873
 20
6.5549164077994515
 30
0.0
 40
0.125
 41
100.0
 71
2
 72
0
  1
10
  7
normallatin1
 50
35.0
 73
1
 44
1.0
  0
MTEXT
  5
112
100
AcDbEntity
100
AcDbMText
  8
numbers
 62
256
370
-1
  6
ByLayer
 10
8.437096050827865
 20
7.1284928441504976
 30
0.0
 40
0.125
 41
100.0
 71
2
 72
0
  1
11
  7
normallatin1
 50
35.0
 73
1
 44
1.0
  0
LINE
  5
113
100
AcDbEntity
100
AcDbLine
  8
0
 62
256
370
-1
  6
ByLayer
 10
0.8191520442889918
 20
0.573576436351046
 30
0.0
 11
0.3531211897537669
 21
1.2391374723358519
 31
0.0
  0
LINE
  5
114
100
AcDbEntity
100
AcDbLine
  8
0
 62
256
370
-1
  6
ByLayer
 10
1.6383040885779836
 20
1.1471528727020921
 30
0.0
 11
1.1722732340427588
 21
1.812713908686898
 31
0.0
  0
LINE
  5
115
100
AcDbEntity
100
AcDbLine
  8
0
 62
256
370
-1
  6
ByLayer
 10
2.4574561328669753
 20
1.7207293090531381
 30
0.0
 11
1.9914252783317505
 21
2.3862903450379442
 31
0.0
  0
LINE
  5
116
100
AcDbEntity
100
AcDbLine
  8
0
 62
256
370
-1
  6
ByLayer
 10
3.2766081771559672
 20
2.2943057454041842
 30
0.0
 11
2.8105773226207429
 21
2.959866781388989
 31
0.0
  0
LINE
  5
117
100
AcDbEntity
100
AcDbLine
  8
0
 62
256
370
-1
  6
ByLayer
 10
4.0957602214449587
 20
2.8678821817552302
 30
0.0
 11
3.629729366909733
 21
3.5334432177400377
 31
0.0
  0
LINE
  5
118
100
AcDbEntity
100
AcDbLine
  8
0
 62
256
370
-1
  6
ByLayer
 10
4.9149122657339506
 20
3.4414586181062763
 30
0.0
 11
4.4488814111987258
 21
4.1070196540910828
 31
0.0
  0
LINE
  5
119
100
AcDbEntity
100
AcDbLine
  8
0
 62
256
370
-1
  6
ByLayer
 10
5.7340643100229425
 20
4.0150350544573223
 30
0.0
 11
5.2680334554877168
 21
4.680596090442128
 31
0.0
  0
LINE
  5
11A
100
AcDbEntity
100
AcDbLine
  8
0
 62
256
370
-1
  6
ByLayer
 10
6.5532163543119344
 20
4.5886114908083684
 30
0.0
 11
6.0871854997767123
 21
5.2541725267931705
 31
0.0
  0
LINE
  5
11B
100
AcDbEntity
100
AcDbLine
  8
0
 62
256
370
-1
  6
ByLayer
 10
7.3723683986009263
 20
5.1621879271594144
 30
0.0
 11
6.9063375440657051
 21
5.8277489631442148
 31
0.0
  0
LINE
  5
11C
100
AcDbEntity
100
AcDbLine
  8
0
 62
256
370
-1
  6
ByLayer
 10
8.1915204428899173
 20
5.7357643635104605
 30
0.0
 11
7.725489588354697
 21
6.4013253994952617
 31
0.0
  0
LINE
  5
11D
100
AcDbEntity
100
AcDbLine
  8
0
 62
256
370
-1
  6
ByLayer
 10
9.0106724871789101
 20
6.3093407998615065
 30
0.0
 11
8.5446416326436818
 21
6.9749018358463184
 31
0.0
  0
LINE
  5
11E
100
AcDbEntity
100
AcDbLine
  8
0
 62
256
370
-1
  6
ByLayer
 10
9.8298245314679011
 20
6.8829172362125526
 30
0.0
 11
9.3637936769326728
 21
7.5484782721973627
 31
0.0
  0
ENDSEC
  0
SECTION
  2
OBJECTS
  0
DICTIONARY
  5
C
100
AcDbDictionary
280
0
281
1
  3
ACAD_GROUP
350
D
  3
ACAD_LAYOUT
350
1A
  3
ACAD_MLINESTYLE
350
17
  3
ACAD_PLOTSETTINGS
350
19
  3
ACAD_PLOTSTYLENAME
350
E
  3
AcDbVariableDictionary
350
11F
  0
DICTIONARY
  5
D
100
AcDbDictionary
280
0
281
1
  0
ACDBDICTIONARYWDFLT
  5
E
100
AcDbDictionary
281
1
  3
Normal
350
F
100
AcDbDictionaryWithDefault
340
F
  0
ACDBPLACEHOLDER
  5
F
  0
DICTIONARY
  5
17
100
AcDbDictionary
280
0
281
1
  3
Standard
350
18
  0
MLINESTYLE
  5
18
100
AcDbMlineStyle
  2
STANDARD
 70
0
  3

 62
256
 51
90.0
 52
90.0
 71
2
 49
0.5
 62
256
  6
BYLAYER
 49
-0.5
 62
256
  6
BYLAYER
  0
DICTIONARY
  5
19
100
AcDbDictionary
280
0
281
1
  0
DICTIONARY
  5
1A
100
AcDbDictionary
281
1
  3
Layout1
350
1E
  3
Layout2
350
26
  3
Model
350
22
  0
LAYOUT
  5
1E
100
AcDbPlotSettings
  1

  2
C:\Program Files\AutoCAD 2002\plotters\DWF ePlot (optimized for plotting).pc3
  4

  6

 40
0.0
 41
0.0
 42
0.0
 43
0.0
 44
0.0
 45
0.0
 46
0.0
 47
0.0
 48
0.0
 49
0.0
140
0.0
141
0.0
142
1.0
143
1.0
 70
688
 72
0
 73
0
 74
5
  7

 75
16
147
1.0
148
0.0
149
0.0
100
AcDbLayout
  1
Layout1
 70
1
 71
1
 10
0.0
 20
0.0
 11
420.0
 21
297.0
 12
0.0
 22
0.0
 32
0.0
 14
100000000000000000000.0
 24
100000000000000000000.0
 34
100000000000000000000.0
 15
-100000000000000000000.0
 25
-100000000000000000000.0
 35
-100000000000000000000.0
146
0.0
 13
0.0
 23
0.0
 33
0.0
 16
1.0
 26
0.0
 36
0.0
 17
0.0
 27
1.0
 37
0.0
 76
0
330
1B
  0
LAYOUT
  5
22
100
AcDbPlotSettings
  1

  2
C:\Program Files\AutoCAD 2002\plotters\DWF ePlot (optimized for plotting).pc3
  4

  6

 40
0.0
 41
0.0
 42
0.0
 43
0.0
 44
0.0
 45
0.0
 46
0.0
 47
0.0
 48
0.0
 49
0.0
140
0.0
141
0.0
142
1.0
143
1.0
 70
1712
 72
0
 73
0
 74
0
  7

 75
0
147
1.0
148
0.0
149
0.0
100
AcDbLayout
  1
Model
 70
1
 71
0
 10
0.0
 20
0.0
 11
12.0
 21
9.0
 12
0.0
 22
0.0
 32
0.0
 14
0.0
 24
0.0
 34
0.0
 15
0.0
 25
0.0
 35
0.0
146
0.0
 13
0.0
 23
0.0
 33
0.0
 16
1.0
 26
0.0
 36
0.0
 17
0.0
 27
1.0
 37
0.0
 76
0
330
1F
  0
LAYOUT
  5
26
100
AcDbPlotSettings
  1

  2
C:\Program Files\AutoCAD 2002\plotters\DWF ePlot (optimized for plotting).pc3
  4

  6

 40
0.0
 41
0.0
 42
0.0
 43
0.0
 44
0.0
 45
0.0
 46
0.0
 47
0.0
 48
0.0
 49
0.0
140
0.0
141
0.0
142
1.0
143
1.0
 70
688
 72
0
 73
0
 74
5
  7

 75
16
147
1.0
148
0.0
149
0.0
100
AcDbLayout
  1
Layout2
 70
1
 71
2
 10
0.0
 20
0.0
 11
12.0
 21
9.0
 12
0.0
 22
0.0
 32
0.0
 14
0.0
 24
0.0
 34
0.0
 15
0.0
 25
0.0
 35
0.0
146
0.0
 13
0.0
 23
0.0
 33
0.0
 16
1.0
 26
0.0
 36
0.0
 17
0.0
 27
1.0
 37
0.0
 76
0
330
23
  0
DICTIONARY
  5
11F
100
AcDbDictionary
281
1
  3
DIMASSOC
350
121
  3
HIDETEXT
350
120
  0
DICTIONARYVAR
  5
120
100
DictionaryVariables
280
0
  1
2
  0
DICTIONARYVAR
  5
121
100
DictionaryVariables
280
0
  1
1
  0
ENDSEC
  0
EOF
